Enter

The Storm

[Dm] I came from the hills with a tear in my[C] eye
[C]The winter closed [G]in and the [Dm]crows filled [C]the [Dm]sky   
[Dm]The houses were [F]burning in flames gold and [C]red  
[C]The people were [G]running with [Dm]eyes full [C]of   [Dm]dread

[Dm] We chased them for miles I had tears in my[C] eyes
[C]Through forest and [G]moor as the [Dm]clouds filled [C]the [Dm]sky   
[Dm]The storm broke up[F]on us with fury and [C]flame
[C]Both hunters and [G]hunted washed [Dm]out in [C]the [Dm]rain   

[Am]I know[Cmaj7] I can      [G6] never r[Fmaj7]eturn      
[Am]To the t[Cmaj7]ime of hop[G6]e when[Fmaj7] I was born
[Am]Let the stre[Cmaj7]ngth of pe[G6]ace run thr[Fmaj7]ough my hands[F]    [G]    

[Am]When w[Cmaj7]e walk away f[G6]rom the [Fmaj7]storm’s roar
Then[Am] I will[Cmaj7] be       [G6]afraid no[Fmaj7] more      
And [Am]now I’m [Cmaj7]sure of [G6]where I [Fmaj7]stand      
Let[Am] the strengt[Cmaj7]h of peace[G6] run through [Fmaj7]this land [G]    

[Dm] And nobody smiled as we took back our[C] own
[C]While rain beat up[G]on us the [Dm]thunder [C]would [Dm]moan   
[Dm]And nobody [F]smiled when we knew what was [C]lost
[C]We knew well e[G]nough only [Dm]time proves [C]the [Dm]cost   

[Am]I know[Cmaj7] I can      [G6] never r[Fmaj7]eturn      
[Am]To the t[Cmaj7]ime of hop[G6]e when[Fmaj7] I was born
[Am]Let the stre[Cmaj7]ngth of pe[G6]ace run thr[Fmaj7]ough my hands[F]    [G]    

[Am]When w[Cmaj7]e walk away f[G6]rom the [Fmaj7]storm’s roar
Then[Am] I will[Cmaj7] be       [G6]afraid no[Fmaj7] more      
And [Am]now I’m [Cmaj7]sure of [G6]where I [Fmaj7]stand      
Let[Am] the strengt[Cmaj7]h of peace[G6] run through [Fmaj7]this land [G]    


Guitar line in Intro:
tabstave notes 12/3 10/3 12/3 10/3 7/3 5/3 7/3 10/3 3/3 5/3 3/3 0/3 0/3 12/3 0/3 12/3 0/3 12/3
tabstave notes 12/3 14/3 15/3 14/3 12/3 14/3 17/3 15/3 14/3 15/3 14/3 10/3 10/3 12/3 14/3 12/3 10/3 7/3 5/3 10/3 7/3
tabstave notes 12/3 14/3 15/3 14/3 12/3 14/3 17/3 15/3 14/3 15/3 14/3 10/3 10/3 12/3 14/3 12/3 10/3 7/3 5/3 10/3 7/3
tabstave notes 12/3 14/3 15/3 14/3 12/3 14/3 17/3 15/3 14/3 15/3 14/3 10/3 10/3 12/3 14/3 12/3 10/3 7/3 5/3 10/3 7/3

I came from the hills with a tear in my eye
The winter closed in and the crows filled the sky
The houses were burning in flames gold and red
The people were running with eyes full of dread

We chased them for miles I had tears in my eyes
Through forest and moor as the clouds filled the sky
The storm broke upon us with fury and flame
Both hunters and hunted washed out in the rain

I know I can never return
To the time of hope when I was born
Let the strength of peace run through my hands

When we walk away from the storm’s roar
Then I will be afraid no more
And now I’m sure of where I stand
Let the strength of peace run through this land

And nobody smiled as we took back our own
While rain beat upon us the thunder would moan
And nobody smiled when we knew what was lost
We knew well enough only time proves the cost

I know I can never return
To the time of hope when I was born
Let the strength of peace run through my hands

When we walk away from the storm’s roar
Then I will be afraid no more
And now I’m sure of where I stand
Let the strength of peace run through this land

Guitar line in Intro:
{start_of_tab}
E|---------------------------------------------------------------------------|
B|---------------------------------------------------------------------------|
G|12---10-12-10-7---5---7--10--3---5---3----0-----0--12----0--12----0--12----|
D|---------------------------------------------------------------------------|
A|---------------------------------------------------------------------------|
E|---------------------------------------------------------------------------|
{end_of_tab}
{start_of_tab}
E|------------------------------------------------------------------------------------|
B|------------------------------------------------------------------------------------|
G|12---14--15---14--12-14-17---15--14-15-14-10---10---12--14---12--10--7---5--10--7---|
D|------------------------------------------------------------------------------------|
A|------------------------------------------------------------------------------------|
E|------------------------------------------------------------------------------------|
{end_of_tab}
{start_of_tab}
E|------------------------------------------------------------------------------------|
B|------------------------------------------------------------------------------------|
G|12---14--15---14--12-14-17---15--14-15-14-10---10---12--14---12--10---7--5--10--7---|
D|------------------------------------------------------------------------------------|
A|------------------------------------------------------------------------------------|
E|------------------------------------------------------------------------------------|
{end_of_tab}
{start_of_tab}
E|------------------------------------------------------------------------------------|
B|------------------------------------------------------------------------------------|
G|12---14--15---14--12-14-17---15--14-15-14-10---10---12--14---12--10--7---5--10--7---|
D|------------------------------------------------------------------------------------|
A|------------------------------------------------------------------------------------|
E|------------------------------------------------------------------------------------|
{end_of_tab}

Hljómar í laginu

  • Dm
  • C
  • G
  • F
  • Am
  • Cmaj7
  • G6
  • Fmaj7

Veldu hljóðfæri

Veldu nýja tóntegund

Chord data © Chordinator.com

blog comments powered by Disqus
 
Staðfesti notandanafn...