Enter

Stjáni Er Saxófón

Höfundur lags: Pétur og Úlfarnir Höfundur texta: Pétur og Úlfarnir Flytjandi: Pétur og Úlfarnir og Sixties Sent inn af: zerbinn
Gítarlína í byrjun lags: (er upphaflega spiluð áttund ofar sjá neðar á síðunni)
tabstave notes 0/1 4/2 2/2 0/2 1/3 2/4 4/4 1/3 4/4 2/4 4/5 2/5 2/4 2/4 2/4 4/4 1/3 2/3 0/2
tabstave notes 0/1 4/2 2/2 0/2 1/3 2/4 4/4 1/3 4/4 2/4 4/5 2/5 2/4 2/4 2/4 4/4 1/3 2/3 4/4

[E]    [G#m]    [F#m]    [B]    [E]    [G#m]    [F#m]    [B]    
[E]    [G#m]    [F#m]    [B]    [E]    [G#m]    [F#m]    [B]    
[B]Saxófón, Saxófón, Saxófón, Saxófón.

Stjáni er [E]æði [G#m]æði     [F#m]æði     [B]Stjáni [E]saxófón [G#m]    [F#m]    [B]    
Stjáni er [E]æði [G#m]æði     [F#m]æði     [B]Stjáni [E]saxófón [G#m]    [F#m]    [B]    

[G#]Hann var ofsa aumur gæji
[B]sem enginn [Bb]vild   [A]i sj[G#]á   
En [C#m]ekki vantaði [C#m7/B]vitglóruna
[A]þó vísu væri hún [B]smá.

[G#]Hann þráði það að verða frægur
[B]en flestum [Bb]virt   [A]ist þ[G#]á   
[C#m]frægð hanns væri [C#m7/B]fjarlægt mark
sem [A]erfitt yrði að [B]ná  

[B]Saxófón, Saxófón, Saxófón, Saxófón.

Stjáni er [E]æði [G#m]æði     [F#m]æði     [B]Stjáni [E]saxófón [G#m]    [F#m]    [B]    
Stjáni er [E]æði [G#m]æði     [F#m]æði     [B]Stjáni [E]saxófón [G#m]    [F#m]    [B]    

[G#]Það þurfti að vera eithvað sérstakt
[B]sem að öllu [Bb]kæmi [A]af st[G#]að   
[C#m]Stjáni fór að [C#m7/B]hugsa um það og
[A]heilann setti í [B]bað  

[G#]Hann náði sér í nótnabók
og [B]nam að [Bb]kappi [A]um tó[G#m]n    
[C#m]keyrði síðan [C#m7/B]ofan í bæ
[A]og keypti saxó[B]fón  

[B]Saxófón, Saxófón, Saxófón, Saxófón.

Stjáni er [E]æði [G#m]æði     [F#m]æði     [B]Stjáni [E]saxófón [G#m]    [F#m]    [B]    
Stjáni er [E]æði [G#m]æði     [F#m]æði     [B]Stjáni [E]saxófón [G#m]    [F#m]    [B]    

[G#]    [B]    [Bb]    [A]    [G#m]    
[C#m]    [C#m7/B]    [A]    [B]    
[G#]    [B]    [Bb]    [A]    [G#m]    
[C#m]    [C#m7/B]    [A]    [B]    

[G#]Nú er hann ofsa góður gæji
[B]sem allir [Bb]dýrka [A]og d[G#m]á    
á [C#m]allra vörum er [C#m7/B]nú Stjáni
[A]hann allar stelpur [B]þrá  

[B]Saxófón, Saxófón, Saxófón, Saxófón.

Stjáni er [E]æði [G#m]æði     [F#m]æði     [B]Stjáni [E]saxófón [G#m]    [F#m]    [B]    
Stjáni er [E]æði [G#m]æði     [F#m]æði     [B]Stjáni [E]saxófón [G#m]    [F#m]    [B]    

Stjáni er [E]æði [G#m]æði     [F#m]æði     [B]Stjáni [E]saxófón [G#m]    [F#m]    [B]    
Stjáni er [E]æði [G#m]æði     [F#m]æði     [B]Stjáni [E]saxófón [G#m]    [F#m]    [B]    

Hérna er gítarlínan á 9. - 12. bandi fyrir rafgítar:
tabstave notes 12/1 11/1 9/1 12/2 9/2 9/3 11/3 9/2 11/3 9/3 11/4 9/4 9/3 9/3 9/3 11/3 9/2 10/2 12/2
tabstave notes 12/1 11/1 9/1 12/2 9/2 9/3 11/3 9/2 11/3 9/3 11/4 9/4 9/3 9/3 9/3 11/3 9/2 10/2 11/3

Gítarlína í byrjun lags: (er upphaflega spiluð áttund ofar sjá neðar á síðunni)
{start_of_tab}
e|-0---|-----------------|-----------------|-----------------|-----------------|
B|---4-|-2---0-----------|-----------------|-----------------|-0---------------|
G|-----|---------1-------|---1-------------|-------------1-2-|-----------------|
D|-----|-------------2---|-4---4-2---------|-2---2---2-4-----|-----------------|
A|-----|-----------------|---------4---2---|-----------------|-----------------|
E|-----|-----------------|-----------------|-----------------|-----------------|
{end_of_tab}
{start_of_tab}
e|-0---|-----------------|-----------------|-----------------|-----------------|
B|---4-|-2---0-----------|-----------------|-----------------|-----------------|
G|-----|---------1-------|---1-------------|-------------1-2-|-----------------|
D|-----|-------------2---|-4---4-2---------|-2---2---2-4-----|-4---------------|
A|-----|-----------------|---------4---2---|-----------------|-----------------|
E|-----|-----------------|-----------------|-----------------|-----------------|
{end_of_tab}



Saxófón, Saxófón, Saxófón, Saxófón.

Stjáni er æði æði æði Stjáni saxófón
Stjáni er æði æði æði Stjáni saxófón

Hann var ofsa aumur gæji
sem enginn vildi sjá
En ekki vantaði vitglóruna
þó vísu væri hún smá.

Hann þráði það að verða frægur
en flestum virtist þá
að frægð hanns væri fjarlægt mark
sem erfitt yrði að ná

Saxófón, Saxófón, Saxófón, Saxófón.

Stjáni er æði æði æði Stjáni saxófón
Stjáni er æði æði æði Stjáni saxófón

Það þurfti að vera eithvað sérstakt
sem að öllu kæmi af stað
Stjáni fór að hugsa um það og
heilann setti í bað

Hann náði sér í nótnabók
og nam að kappi um tón
keyrði síðan ofan í bæ
og keypti saxófón

Saxófón, Saxófón, Saxófón, Saxófón.

Stjáni er æði æði æði Stjáni saxófón
Stjáni er æði æði æði Stjáni saxófón




Nú er hann ofsa góður gæji
sem allir dýrka og dá
á allra vörum er nú Stjáni
hann allar stelpur þrá

Saxófón, Saxófón, Saxófón, Saxófón.

Stjáni er æði æði æði Stjáni saxófón
Stjáni er æði æði æði Stjáni saxófón

Stjáni er æði æði æði Stjáni saxófón
Stjáni er æði æði æði Stjáni saxófón

Hérna er gítarlínan á 9. - 12. bandi fyrir rafgítar:
{start_of_tab}
e|-12-11-|-9---------------|-----------------|------------------|-----------------|
B|-------|----12---9-------|---9-------------|-------------9-10-|-12--------------|
G|-------|-------------9---|-11--11-9--------|-9---9---9-11-----|-----------------|
D|-------|-----------------|---------11--9---|------------------|-----------------|
A|-------|-----------------|-----------------|------------------|-----------------|
E|-------|-----------------|-----------------|------------------|-----------------|
{end_of_tab}
{start_of_tab}
e|-12-11-|-9---------------|-----------------|-------------------|-----------------|
B|-------|----12---9-------|---9-------------|--------------9-10-|-----------------|
G|-------|-------------9---|-11--11-9--------|-9---9---9-11------|-11--------------|
D|-------|-----------------|----------11--9--|-------------------|-----------------|
A|-------|-----------------|-----------------|-------------------|-----------------|
E|-------|-----------------|-----------------|-------------------|-----------------|
{end_of_tab}

Hljómar í laginu

  • E
  • G#m
  • F#m
  • B
  • G#
  • Bb
  • A
  • C#m
  • C#m7/B

Veldu hljóðfæri

Veldu nýja tóntegund

Chord data © Chordinator.com

blog comments powered by Disqus
 
Staðfesti notandanafn...