Enter

Sister of Night (ver. 2)

Höfundur lags: Depeche Mode Sent inn af: Anonymous
tabstave notes 9/4 7/4 9/4 5/4 7/3 9/4 7/4 9/4 5/4 5/4

[E]Sister of night
[E]When the hunger descends
[E]And your body's a fire
[E]An inferno that never ends
[D]An eternal flame
[D]That burns in desire's name

[E]Sister of night
[E]When the longing returns
[E]Giving voice to the flame
[E]Calling you through flesh that burns
[D]Breaking down your will
[D]To move in for the kill

tabstave notes 7/6 5/6

[A]Oh sister
[E]Come for me
[B]Embrace me
[E]Assure me
[A]Hey sister
[E]I feel it t[B]oo [A]    

[A]Sweet sister
[E]Just feel me
[B]I'm trembling
[E]You heal me
[A]Hey sister
[E]I feel it t[B]oo [A]    

tabstave notes 9/4 7/4 9/4 5/4 7/3 9/4 7/4 9/4 5/4 5/4

[E]Sister of night
[E]In your saddest dress
[E]As you walk through the light
[E]You're desperate to impress
[D]So you slide to the floor
[D]Feeling insecure

[E]Sister of night
[E]With the loneliest eyes
[E]Tell yourself it's alright
[E]He'll make such a perfect prize
[D]But the cold light of day
[D]Will give the game away



tabstave notes 7/6 5/6


[A]Oh sister
[E]Come for me
[B]Embrace me
[E]Assure me
[A]Hey sister
[E]I feel it t[B]oo [A]    

[A]Sweet sister
[E]Just feel me
[B]I'm trembling
[E]You heal me
[A]Hey sister
[E]I feel it t[B]oo [A]    

tabstave notes 15/1 17/1 19/1 17/1

{start_of_tab}
------------------------------------------------
------------------------------------------------
------------------7-----------------------------
--9---7---9---5-------9---7---9/5---5-----------
------------------------------------------------
------------------------------------------------
{end_of_tab}

Sister of night
When the hunger descends
And your body's a fire
An inferno that never ends
An eternal flame
That burns in desire's name

Sister of night
When the longing returns
Giving voice to the flame
Calling you through flesh that burns
Breaking down your will
To move in for the kill

{start_of_tab}
------------
------------
------------
------------
------------
--7/5-------
{end_of_tab}

Oh sister
Come for me
Embrace me
Assure me
Hey sister
I feel it too

Sweet sister
Just feel me
I'm trembling
You heal me
Hey sister
I feel it too

{start_of_tab}
------------------------------------------------
------------------------------------------------
------------------7-----------------------------
--9---7---9---5-------9---7---9/5---5-----------
------------------------------------------------
------------------------------------------------
{end_of_tab}

Sister of night
In your saddest dress
As you walk through the light
You're desperate to impress
So you slide to the floor
Feeling insecure

Sister of night
With the loneliest eyes
Tell yourself it's alright
He'll make such a perfect prize
But the cold light of day
Will give the game away

{start_of_tab}
------------
------------
------------
------------
------------
--7/5-------
{end_of_tab}

Oh sister
Come for me
Embrace me
Assure me
Hey sister
I feel it too

Sweet sister
Just feel me
I'm trembling
You heal me
Hey sister
I feel it too

{start_of_tab}
---------15---17---19---17---------------------
-----------------------------------------------
-----------------------------------------------
-----------------------------------------------
-----------------------------------------------
-----------------------------------------------
{end_of_tab}

Hljómar í laginu

  • E
  • D
  • A
  • B

Veldu hljóðfæri

Veldu nýja tóntegund

Chord data © Chordinator.com

blog comments powered by Disqus
 
Staðfesti notandanafn...