Enter

Michelle

Höfundur lags: Paul McCartney og John Lennon Höfundur texta: Paul McCartney og John Lennon Flytjandi: The Beatles Sent inn af: gilsi
Capó á 3. bandi
guitar intro
tabstave notes 7/3 (5/1.6/2) 6/3 (5/1.6/2) 5/3 (5/1.6/2) 4/3 (5/1.6/2) 3/3 (3/2.5/1) 3/1 6/2 (5/1.5/2.5/6.6/3.7/4.7/5)

[Dm]    [Dmmaj7]    [Dm7]    [Dm6]    [Bb/D]    [A7]    
[D]Michelle, [Gm]ma belle
[C]these are words that [Ddim7]go together [A]well,
[Ddim7]my Mic      [A]helle

[D]Michelle [Gm]ma belle,
[C]sont les mots qui [Ddim7]vont tres bien ensem[A]ble  
[Ddim7]tres bien ensem[A]ble  

[Dm]I love you, I love you, I love you
[F]that´s all I want to [Bb]say   
[A7]until I find the [Dm]way   
I will [Dm]say the [Dmmaj7]only        [Dm7]words I [Dm6]know that [Bb/D]you´ll under[A7]stand

[D]Michelle [Gm]ma belle
[C]sont les mots qui [Ddim7]vont tres bien ensem[A]ble  
[Ddim7]tres bien ensm[A]ble  

[Dm]I need you, I need you, I need you
[F]I need to make you [Bb]see   
[A7]what you mean to [Dm]me   
un[Dm]til I [Dmmaj7]do, I´m        [Dm7]hoping [Dm6]you will [Bb/D]know what I [A7]mean   

[D]I love you
[Gm]    [C]    [Ddim7]    [A]    [Ddim7]    [A]    
guitar solo
tabstave notes 0/4 0/4 2/4 4/4 0/3 2/3 3/3 3/4 2/4 2/4 3/4 0/3 3/4 0/4 0/4 2/4 3/4 2/5 4/5 2/5 3/4 0/4 4/5 0/5 2/5 4/5 0/4 2/4 3/4

[Dm]I want you, I want you, I want you
[F]I think you know by [Bb]now,   
[A7]I´ll get to you some[Dm]how,   
un[Dm]til I [Dmmaj7]do I´m        [Dm7]telling [Dm6]you, so [Bb/D]you´ll under[A7]stand

[D]Michelle, [Gm]ma belle
[C]sont les mots qui [Ddim7]vont tres bien ensem[A]ble  
[Ddim7]tres bien ensem[A]ble  
[Dm]I will say the [Dmmaj7]only        [Dm7]words I [Dm6]know that [Bb/D]you´ll under[A7]stand
My Mic[D]helle.

[Gm]    [C]    [Ddim7]    [A]    [Ddim7]    [A]    
guitar solo in outro
tabstave notes 0/4 0/4 2/4 4/4 0/3 2/3 3/3 3/4 2/4 2/4 3/4 0/3 3/4 0/4 0/4 2/4 3/4 2/5 4/5 2/5 3/4 0/4 4/5 0/5 2/5 4/5 0/4 2/4

guitar intro
{start_of_tab}
|---5---5---5---5---5-3---5-|
|---6---6---6---6---3---6-5-|
|-7---6---5---4---3-------6-|
|-------------------------7-|
|-------------------------7-|
|-------------------------5-|
{end_of_tab}


Michelle, ma belle
these are words that go together well,
my Michelle

Michelle ma belle,
sont les mots qui vont tres bien ensemble
tres bien ensemble

I love you, I love you, I love you
that´s all I want to say
until I find the way
I will say the only words I know that you´ll understand

Michelle ma belle
sont les mots qui vont tres bien ensemble
tres bien ensmble

I need you, I need you, I need you
I need to make you see
what you mean to me
until I do, I´m hoping you will know what I mean

I love you

guitar solo
{start_of_tab}
|------------------------------------------------------------|
|------------------------------------------------------------|
|---------0-2-3----------0-----------------------------------|
|-0-0-2-4-------3--2-2-3---3-0-0-2-3-------3-0---------0-2-3-|
|------------------------------------2-4-2-----4-0-2-4-------|
|------------------------------------------------------------|
{end_of_tab}

I want you, I want you, I want you
I think you know by now,
I´ll get to you somehow,
until I do I´m telling you, so you´ll understand

Michelle, ma belle
sont les mots qui vont tres bien ensemble
tres bien ensemble
I will say the only words I know that you´ll understand
My Michelle.


guitar solo in outro
{start_of_tab}
|----------------------------------------------------------|
|----------------------------------------------------------|
|---------0-2-3----------0---------------------------------|
|-0-0-2-4-------3--2-2-3---3-0-0-2-3-------3-0---------0-2-|
|------------------------------------2-4-2-----4-0-2-4-----|
|----------------------------------------------------------|
{end_of_tab}

Hljómar í laginu

  • Dm
  • Dmmaj7
  • Dm7
  • Dm6
  • Bb/D
  • A7
  • D
  • Gm
  • C
  • Ddim7
  • A
  • F
  • Bb

Veldu hljóðfæri

Veldu nýja tóntegund

Chord data © Chordinator.com

blog comments powered by Disqus
 
Staðfesti notandanafn...