Enter

Lady Madonna

Höfundur lags: John Lennon og Paul McCartney Höfundur texta: John Lennon og Paul McCartney Flytjandi: The Beatles , Tommy Emmanuel og Björn Thoroddsen Sent inn af: Anonymous
Main riff for bass or guitar
tabstave notes 0/5 0/5 3/5 4/5 0/4 0/4 34/4 2/3 0/5 0/5 3/5 4/5 0/4 0/4 34/4 2/3 0/5 0/5 4/5 4/5 0/4 0/4 2/4 2/4 3/4 3/4 0/3 0/3 2/3
[A]    [D]    [A]    [D]    
[A]    [D]    [D/E]    [F]    [G]    [A]    
[A]Lady Ma[D]donna, [A]children at your [D]feet
[A]Wonder how you [D]manage [D/E]to     [F]make [G]ends [A]meet
Who finds the [D]money [A]when you pay the [D]rent
[A]Did you think that [D]money [D/E]was     [F]hea  [G]ven [A]sent?

[Dm7]Friday night arrives without a [G7]suitcase
[C]Sunday morning creeping like a [Am]nun   
[Dm7]Monday's child has learned to tie his [G7]bootlace
[C]See [G/B]how they'll [Esus4]ru      [E]n  

[A]Lady Ma[D]donna, [A]baby at your [D]breast
[A]Wonder how you [D]manage [D/E]to     [F]feed [G]the [A]rest
[A]    [D]    [A]    [D]    
[A]    [D]    [D/E]    [F]    [G]    [A]    

[Dm7]Ba-ba-ba-baaa ba-ba [G7]ba-ba-baaa
[C]Ba-ba-ba-baaa ba-ba baaa [Am]ba-baa ba-baa
[Dm7]Ba-ba-ba-baaa ba-ba [G7]ba-ba-baaa
[C]See [G/B]how they'll [Esus4]ru      [E]n  

[A]Lady Ma[D]donna, [A]lying on the [D]bed  
[A]Listen to the [D]music [D/E]playing [F]in   [G]your [A]head

[Dm7]Tuesday afternoon is never [G7]ending (ba-ba-ba-baaa, ba-ba ba-ba-baaa)
[C]Wednesday morning papers didn't [Am]come (ba-ba-ba-baaa, ba-ba baaa ba-baa ba-baa)
[Dm7]Thursday night your stockings needed [G7]mending (ba-ba-ba-baaa, ba-ba ba-ba-baaa)
[C]See [G/B]how they'll [Esus4]ru      [E]n  

[A]Lady Ma[D]donna, [A]children at your [D]feet
[A]Wonder how you [D]manage [D/E]to     [F]make [G]ends [A]meet
[A/B]    [C]    [A/B]    [A]    
[A]    [A/B]    [C]    [A/B]    [A]    

Bass riff in Chorus:
tabstave notes 0/4 0/4 3/5 3/5 2/5 2/5 0/5 0/5 0/3 0/3 3/4 3/4 2/4 2/4 0/4 0/4 3/5 3/5 2/5 2/5 0/5 0/5 3/6 3/6

tabstave notes 0/5 0/5 2/5 2/5 3/5 3/5 4/5 4/5 0/4 0/4 3/5 3/5 2/5 2/5 0/5 0/5 0/3 0/3 3/4 3/4 2/4 2/4 0/4 0/4

Main riff for bass or guitar
{start_of_tab}
e|-----------------|-----------------|---------------------------|
B|-----------------|-----------------|---------------------------|
G|---------------2-|---------------2-|---------------------0-0-2-|
D|---------0-0-34--|---------0-0-34--|---------0-0-2-2-3-3-------|
A|-0-0-3-4---------|-0-0-3-4---------|-0-0-4-4-------------------|
E|-----------------|-----------------|---------------------------|
{end_of_tab}


Lady Madonna, children at your feet
Wonder how you manage to make ends meet
Who finds the money when you pay the rent
Did you think that money was heaven sent?

Friday night arrives without a suitcase
Sunday morning creeping like a nun
Monday's child has learned to tie his bootlace
See how they'll run

Lady Madonna, baby at your breast
Wonder how you manage to feed the rest

Ba-ba-ba-baaa ba-ba ba-ba-baaa
Ba-ba-ba-baaa ba-ba baaa ba-baa ba-baa
Ba-ba-ba-baaa ba-ba ba-ba-baaa
See how they'll run

Lady Madonna, lying on the bed
Listen to the music playing in your head

Tuesday afternoon is never ending (ba-ba-ba-baaa, ba-ba ba-ba-baaa)
Wednesday morning papers didn't come (ba-ba-ba-baaa, ba-ba baaa ba-baa ba-baa)
Thursday night your stockings needed mending (ba-ba-ba-baaa, ba-ba ba-ba-baaa)
See how they'll run

Lady Madonna, children at your feet
Wonder how you manage to make ends meet

Bass riff in Chorus:
{start_of_tab}
e|-------------------------------------------------|
B|-------------------------------------------------|
G|-----------------0-0-----------------------------|
D|-0-0-----------------3-3-2-2-0-0-----------------|
A|-----3-3-2-2-0-0-----------------3-3-2-2-0-0-----|
E|---------------------------------------------3-3-|
{end_of_tab}

{start_of_tab}
e|-------------------------------------------------|
B|-------------------------------------------------|
G|---------------------------------0-0-------------|
D|-----------------0-0-----------------3-3-2-2-0-0-|
A|-0-0-2-2-3-3-4-4-----3-3-2-2-0-0-----------------|
E|-------------------------------------------------|
{end_of_tab}

Hljómar í laginu

  • A
  • D
  • D/E
  • F
  • G
  • Dm7
  • G7
  • C
  • Am
  • G/B
  • Esus4
  • E
  • A/B

Veldu hljóðfæri

Veldu nýja tóntegund

Chord data © Chordinator.com

blog comments powered by Disqus
 
Staðfesti notandanafn...