Enter

Dreams

Höfundur lags: Noel Hogan Höfundur texta: Dolores O'Riordan Flytjandi: The Cranberries Sent inn af: Anonymous
Guitar riff
tabstave notes 2/4 0/2 1/3 2/4 0/2 1/3 2/4 0/2 0/2 1/3 2/4 0/2 1/3 2/4 0/2 0/5 0/2 1/3 0/5 0/2 1/3 0/5 0/2 0/2 1/3 0/5 0/2 1/3 0/5 0/2
tabstave notes 2/5 0/2 2/3 2/5 0/2 2/3 2/5 0/2 0/2 2/3 2/5 0/2 2/3 2/5 0/2 2/4 0/2 1/3 2/4 0/2 1/3 2/4 0/2 0/2 1/3 2/4 0/2 1/3 2/4 0/2
[E]Oh my [A]life
is changing every[B]day  
in every possible [E]way  
[E]though my [A]dreams,
it's never quite as it [B]seems
never quite as it [E]seems

[E]I know I felt like this be[A]fore
but now I'm feeling it even [B]more
because it came from [E]you  

[E]Then I open up and [A]see  
the person fumbling here is [B]me  
a different way to [E]be  

[G]    [C]    [G]    [C]    
[E]I want [A]more, impossible to ig[B]nore
impossible to ig[E]nore
[E]they'll come [A]true, impossible not to [B]do  
impossible not to [E]do  

[E]Now I tell you open[A]ly  
you have my heart so don't hurt [B]me  
for what I couldn't [E]find

[E]Talk to me amazing [A]mind
so understanding and so [B]kind
you're everything to [E]me  

[E]Oh my [A]life
is changing every[B]day  
every possible [E]way  
[E]though my [A]dreams,
it's never quite as it [B]seems
'cause you're a dream to [E]me  
dream to me

[E]    [A]    [B]    
[E]    [A]    [B]    

Guitar riff
{start_of_tab}
e|------------------------------------------------------------------|
B|----0-----0-----0---0-----0-----0---0-----0-----0---0-----0-----0-|
G|------1-----1---------1-----1---------1-----1---------1-----1-----|
D|-(2)---(2)---(2)-------(2)---(2)----------------------------------|
A|---------------------------------(0)---(0)---(0)-------(0)---(0)--|
E|------------------------------------------------------------------|
{end_of_tab}
{start_of_tab}
e|------------------------------------------------------------------|
B|----0-----0-----0---0-----0-----0---0-----0-----0---0-----0-----0-|
G|------2-----2---------2-----2---------1-----1---------1-----1-----|
D|---------------------------------(2)---(2)---(2)-------(2)---(2)--|
A|-(2)---(2)---(2)-------(2)---(2)----------------------------------|
E|------------------------------------------------------------------|
{end_of_tab}
Oh my life
is changing everyday
in every possible way
though my dreams,
it's never quite as it seems
never quite as it seems

I know I felt like this before
but now I'm feeling it even more
because it came from you

Then I open up and see
the person fumbling here is me
a different way to be


I want more, impossible to ignore
impossible to ignore
they'll come true, impossible not to do
impossible not to do

Now I tell you openly
you have my heart so don't hurt me
for what I couldn't find

Talk to me amazing mind
so understanding and so kind
you're everything to me

Oh my life
is changing everyday
every possible way
though my dreams,
it's never quite as it seems
'cause you're a dream to me
dream to me


Hljómar í laginu

  • E
  • A
  • B
  • G
  • C

Veldu hljóðfæri

Veldu nýja tóntegund

Chord data © Chordinator.com

blog comments powered by Disqus
 
Staðfesti notandanafn...