Enter

Cars

Höfundur lags: Gary Numan Höfundur texta: Gary Numan Flytjandi: Gary Numan Sent inn af: gilsi
Guitar line in intro, verses & outro
tabstave notes 5/5 4/5 3/6 5/6 5/6 5/6 5/5 4/5 3/6 5/6 5/6 5/6 5/5 4/5 3/6 5/6 5/6 5/6 5/5 4/5 3/6 5/6 5/6 5/6 2/6 3/6 2/5 3/6 2/6 3/6 2/5 3/6

[A]    [G]    
[A]    [G]    
[A]Here in my car
I feel safest of all
I can lock all my doors
It's the only way to live
In [G]cars.

[A]Here in my car
I can only receive
I can listen to you
It keeps me stable for days
In [G]cars

[D]    
(Interlude)

[A]Here in my car
Where the image breaks down
Will you visit me please
If I open my door
In [G]cars

[A]Here in my car
I know I've started to think
About leaving tonight
Although nothing seems right
In [G]cars.

[D]    
(Interlude)

[A]    [G]    
[A]    [G]    

Synth line in Interlude
tabstave notes 0/4 3/2 2/3 0/2 1/2 0/2 0/4 3/2 2/3 1/1 0/1 0/4 3/2 2/3 0/2 1/2 0/2 0/4 0/4 0/3 2/3 3/2
tabstave notes 0/4 3/2 2/3 0/2 1/2 0/2 0/4 3/2 2/3 1/1 0/1 0/4 3/2 2/3 0/2 1/2 0/2 0/4 0/3 2/3 3/2

Guitar line in intro, verses & outro
{start_of_tab}
e|-------------|-------------|-------------|-------------|-----------|-----------|
B|-------------|-------------|-------------|-------------|-----------|-----------|
G|-------------|-------------|-------------|-------------|-----------|-----------|
D|-------------|-------------|-------------|-------------|-----------|-----------|
A|-5-4---------|-5-4---------|-5-4---------|-5-4---------|-----2-----|-----2-----|
E|-----3-5-5-5-|-----3-5-5-5-|-----3-5-5-5-|-----3-5-5-5-|-2-3---3---|-2-3---3---|
{end_of_tab}



Here in my car
I feel safest of all
I can lock all my doors
It's the only way to live
In cars.

Here in my car
I can only receive
I can listen to you
It keeps me stable for days
In cars


(Interlude)

Here in my car
Where the image breaks down
Will you visit me please
If I open my door
In cars

Here in my car
I know I've started to think
About leaving tonight
Although nothing seems right
In cars.


(Interlude)


Synth line in Interlude
{start_of_tab}
e|-------------------1-0-----------------------|
B|---3---0-1-0---3---------3---0-1-0---------3-|
G|-----2-----------2---------2-----------0-2---|
D|-0-----------0---------0-----------0-0-------|
A|---------------------------------------------|
E|---------------------------------------------|
{end_of_tab}
{start_of_tab}
e|-------------------1-0-----------------------|
B|---3---0-1-0---3---------3---0-1-0-------3---|
G|-----2-----------2---------2---------0-2-----|
D|-0-----------0---------0-----------0---------|
A|---------------------------------------------|
E|---------------------------------------------|
{end_of_tab}

Hljómar í laginu

  • A
  • G
  • D

Veldu hljóðfæri

Veldu nýja tóntegund

Chord data © Chordinator.com

blog comments powered by Disqus
 
Staðfesti notandanafn...