Enter

And I love her

Höfundur lags: John Lennon og Paul McCartney Höfundur texta: John Lennon og Paul McCartney Flytjandi: The Beatles Sent inn af: Anonymous
Capo on 2. fret (for original key in F#)

Guitar line in Intro
tabstave notes 0/5 0/4 4/5 2/5 0/5 0/4 4/5 2/5
[Em]    [D]    
[Em]I give her [Bm]all my love
[Em]That's all I [Bm]do   
[Em]And if you [Bm]saw my love
[G]You'd love her [A]too  
I [D]love her

[Em]She gives me [Bm]everything
[Em]And tender[Bm]ly   
[Em]The kiss my [Bm]lover brings
[G]She brings to [A]me  
And I [D]love her

[Bm]A love like [A]ours, [Bm]could never [F#m]die    
[Bm]As long as [F#m]I have you [A]near me

[Em]Bright are the [Bm]stars that shine
[Em]Dark is the [Bm]sky   
[Em]I know this [Bm]love of mine
[G]Will never [A]die  
And I [D]love her.

Solo:
[Fm]    [Cm]    [Fm]    [Cm]    
[Fm]    [Cm]    [G#]    [A#]    [D#]    
[Fm]Bright are the [Cm]stars that shine
[Fm]Dark is the [Cm]sky   
[Fm]I know this [Fm]love of mine
[G#]Will never [A#]die   
And I [D#]love her.
[Fm]    [D#]    [Fm]    [C]    

Guitar solo
tabstave notes 3/4 0/3 1/3 3/2 1/2 4/2 3/4 0/3 1/3 3/2 1/2 3/4 0/3 1/3 3/2 1/2 4/2 4/2 1/2 1/3 0/3 3/4 1/5 1/5 3/5 0/3 3/3 0/3 3/4 1/4 3/4

Capo on 2. fret (for original key in F#)

Guitar line in Intro
{start_of_tab}
e|-------------------------
B|-------------------------
G|-------------------------
D|---0----------0----------
A|-0---4-2----0---4-2------
E|-------------------------
{end_of_tab}

I give her all my love
That's all I do
And if you saw my love
You'd love her too
I love her

She gives me everything
And tenderly
The kiss my lover brings
She brings to me
And I love her

A love like ours, could never die
As long as I have you near me

Bright are the stars that shine
Dark is the sky
I know this love of mine
Will never die
And I love her.

Solo:


Bright are the stars that shine
Dark is the sky
I know this love of mine
Will never die
And I love her.

Guitar solo
{start_of_tab}
e|--------------------------------------------------------------------
B|-------3-1-4--------3-1--------3-1-4---4-1--------------------------
G|---0-1----------0-1--------0-1-------------1-0---------0--3-0-------
D|-3------------3----------3---------------------3--------------3-1-3-
A|-------------------------------------------------1-1-3--------------
E|--------------------------------------------------------------------
{end_of_tab}

Hljómar í laginu

  • Em
  • D
  • Bm
  • G
  • A
  • F#m
  • Fm
  • Cm
  • G#
  • A#
  • D#
  • C

Veldu hljóðfæri

Veldu nýja tóntegund

Chord data © Chordinator.com

blog comments powered by Disqus
 
Staðfesti notandanafn...