Enter

Yesterdays

Song Author Guns N Roses Submitted by: Anonymous
[D]    [C]    [G]    
[D]    [C]    [G]    
Y[D]esterday
There was[C9] so many things
I was n[G]ever told
N[D]ow that I'm starting to learn
I f[C9]eel I'm gr[G]owing old

'Cause [D]yesterday's got not[C9]hin' for me
Old p[G9]ictures that I'll always see
T[D]ime just fades the pages
In m[G9]y book of memories
Pr[D]ayers in my pocket
And no ha[C9]nd in destiny[G]    
[D]I'll keep on movin' along
With no ti[C9]me to plant my feet[G]    

'Cause y[D]esterday's got n[C9]othin' for me
Old p[G]ictures that I'll always see
Som[D]ethings could be better
If [G]we'd all just let them be

O[A]h, yeste[B]rda  [C]y's got nothin' for me[G]    
Yesterd[A]ay's,[B] oh  [C], got nothin' for me[G]    
Got nothin' for me[Bm]    [G]    [Bm]    [G]    [Bm]    [C#]    [D]    [E]    

tabstave notes 9/4 9/3 9/3 9/3 1/3 2/3 7/3 9/3 7/3 9/4 7/4 9/4 10/2 7/1 10/2 7/2 9/3 7/3 9/3 9/3 7/3

tabstave notes 10/2 10/2 12/2 12/2 12/2 13/2 13/2 13/2 15/2 15/2 16/3 13/3 14/4

tabstave notes 12/3 14/3 12/1 12/2 15/2 12/1 15/2 12/2 14/3 12/3 13/3 14/4 14/4 12/3 14/3 12/2 14/3 15/1 12/1 13/2

tabstave notes 17/2 17/1


[D]Yesterday there were so[C9] many things
I was n[G]ever shown
S[D]uddenly this time I found
I[C9]'m on the streets and I'm a[G]ll alone

[D]Yesterday's got noth[C9]in' for me
Old p[G]ictures that I'll always see
[D]I ain't got time to re[G]minisce old novel ties

[A]Yesterd[Bm]ay's   [C] got nothin' for me [G]    
Yesterda[A]y's  [Bm]    [C]got nothin' for me [G]    
Yesterda[A]y's  [Bm]    [C]got nothin' for me [G]    
Yesterda[A]y, ye[Bm]ah    [C]    

[C9]Yesterday...



Yesterday
There was so many things
I was never told
Now that I'm starting to learn
I feel I'm growing old

'Cause yesterday's got nothin' for me
Old pictures that I'll always see
Time just fades the pages
In my book of memories
Prayers in my pocket
And no hand in destiny
I'll keep on movin' along
With no time to plant my feet

'Cause yesterday's got nothin' for me
Old pictures that I'll always see
Somethings could be better
If we'd all just let them be

Oh, yesterday's got nothin' for me
Yesterday's, oh, got nothin' for me
Got nothin' for me

{start_of_tab}
e|-----------------------------------7---------------------------------
B|------------------------------10b----10-7----------------------------
G|------9b9b->9b1/2-7-9p7-------------------9b-7-9-9b-7----------------
D|--/9--------------------9-7-9----------------------------------------
A|---------------------------------------------------------------------
E|---------------------------------------------------------------------
{end_of_tab}

{start_of_tab}
e|---------------------------------------------------------------------
B|-10b-10b---12b-12b--12b--13b-13b--13b--15b--15-----------------------
G|-----------------------------------------------16-13-----------------
D|-----------------------------------------------------14--------------
A|---------------------------------------------------------------------
E|---------------------------------------------------------------------
{end_of_tab}

{start_of_tab}
e|---------12--------12----------------------------------15p12---------
B|------------12-15b----15-12----------------------12----------13b-----
G|--12-14---------------------14-12h13-------12-14----14---------------
D|-------------------------------------14-14---------------------------
A|---------------------------------------------------------------------
E|---------------------------------------------------------------------
{end_of_tab}

{start_of_tab}
e|------17\------------------------------------------------------------
B|-/17b----------------------------------------------------------------
G|---------------------------------------------------------------------
D|---------------------------------------------------------------------
A|---------------------------------------------------------------------
E|---------------------------------------------------------------------
{end_of_tab}

Yesterday there were so many things
I was never shown
Suddenly this time I found
I'm on the streets and I'm all alone

Yesterday's got nothin' for me
Old pictures that I'll always see
I ain't got time to reminisce old novel ties

Yesterday's got nothin' for me
Yesterday's got nothin' for me
Yesterday's got nothin' for me
Yesterday, yeah

Yesterday...

Chords

  • D
  • C
  • G
  • C9
  • G9
  • A
  • B
  • Bm
  • C#
  • E

Pick an instrument

Transpose the song

Chord data © Chordinator.com

blog comments powered by Disqus
 
Validating login...