Enter

Við höfum fengið nóg (Sísí fríkar út - úr myndinni Með allt á hreinu)

Song Author Ragnhildur Gísladóttir Lyrics by: Ragnhildur Gísladóttir Performer: Grýlurnar Submitted by: gilsi
[Gm]    [Dm]    [Gm]    [Dm]    
[Gm]    [Dm]    [Gm]    [Dm]    
[Gm]    [Dm]    [Gm]    [Dm]    
Við [Gm]höfum allar fengið [Dm]nóg   
[Gm]milljón sinnum meir en [Dm]nóg   
Þeir [Gm]skuli sigla hver sinn [Dm]sjó   
[Cm]fló    [Dm]hjó   

[Gm]sá hlær best sem [Dm]síðast hlær
o-[D#]hó, o-[Dm]hó   
[Gm]Ekkert elsku mamma [Dm]meir,
heyr, [Cm]heyr.
[Dm]Við beitum bellibrögðum

Karl-pung-ar
mikið lifandi skelfingar
bévítast, idjótar,
getið þið annars verið
skít-hæl-ar

Pung-rott-ur
mikið lifandi skelfingar
bévítast, idjótar, idjótar, idjótar, idjótar,
getið þið annars verið
tá-fíl-ur

Við [Gm]höfum fengið [Dm]nóg   
Við [Gm]höfum fengið [Dm]nóg   
Við [Gm]höfum fengið [Dm]nóg   
Við [Cm]höfum fengið [Dm]nóg   

Við [Gm]höfum fengið [Dm]nóg   
Við [D#]höfum fengið [Dm]nóg   
Við [Gm]höfum fengið [Dm]nóg   
Við [Cm]höfum fengið [Dm]nóg   

Gítar í byrjun lagsins
tabstave notes 0/3 3/1 3/2 3/1 0/3 3/1 3/2 3/1 0/4 3/2 2/3 3/2 0/4 3/2 2/3 3/2

Gítar og bassa stef í viðlaginu
tabstave notes 0/4 3/4 0/3 3/4 0/3 3/3 3/3 0/3 3/3 1/2 3/3 3/2 1/2 3/3 3/2 1/2 3/3 0/3 0/3 3/4 0/3 3/4 0/4 3/5 1/5 0/5 3/6




Við höfum allar fengið nóg
já milljón sinnum meir en nóg
Þeir skuli sigla hver sinn sjó
sú fló hjó

sá hlær best sem síðast hlær
o-hó, o-hó
Ekkert elsku mamma meir,
heyr, heyr.
Við beitum bellibrögðum

Karl-pung-ar
mikið lifandi skelfingar
bévítast, idjótar,
getið þið annars verið
skít-hæl-ar

Pung-rott-ur
mikið lifandi skelfingar
bévítast, idjótar, idjótar, idjótar, idjótar,
getið þið annars verið
tá-fíl-ur

Við höfum fengið nóg
Við höfum fengið nóg
Við höfum fengið nóg
Við höfum fengið nóg

Við höfum fengið nóg
Við höfum fengið nóg
Við höfum fengið nóg
Við höfum fengið nóg

Gítar í byrjun lagsins
{start_of_tab}
e|---3---3---3---3------------------|
B|-----3-------3-----3---3---3---3--|
G|-0-------0-----------2-------2----|
D|-----------------0-------0--------|
A|----------------------------------|
E|----------------------------------|
{end_of_tab}

Gítar og bassa stef í viðlaginu
{start_of_tab}
e|--------------------------------------------------------|
B|-------------------1---3-1---3-1------------------------|
G|-----0---0-3-3-0-3---3-----3-----3-0-0---0--------------|
D|-0-3---3-------------------------------3---3--0---------|
A|------------------------------------------------3-1-0---|
E|------------------------------------------------------3-|
{end_of_tab}

Chords

  • Gm
  • Dm
  • Cm
  • D#

Pick an instrument

Transpose the song

Chord data © Chordinator.com

blog comments powered by Disqus
 
Validating login...