Enter

Signals

Song Author Unnar Gísli Sigurmundsson Lyrics by: Unnar Gísli Sigurmundsson Performer: Júníus Meyvant Submitted by: thorarinn93
[B]    [C#m]    [G#m]    [G#m]    
[B]    [C#m]    [G#m]    [G#m]    
[B]God of [C#m]all    
I'm in [G#m]love with you
[B]God of [C#m]all    
Why am I [G#m]loved by you

Sending out [B]signals from [C#m]me    
Sending out [G#m]signals
Sending out [B]signals to [C#m]you    
Sending out [G#m]signals

[B]    [C#m]    [G#m]    [G#m]    
[B]    [C#m]    [G#m]    [G#m]    
[B]    [C#m]    [G#m]    [G#m]    
[B]    [C#m]    [G#m]    [G#m]    
[B]God of [C#m]all    
I'm in [G#m]love with you
[B]God of [C#m]all    
Why am I [G#m]loved by you

Sending out [B]signals from [C#m]me    
Sending out [G#m]signals
Sending out [B]signals to [C#m]you    
Sending out [G#m]signals

[B]    [C#m]    [G#m]    [G#m]    
[B]    [C#m]    [G#m]    [G#m]    
[B]    [C#m]    [G#m]    [G#m]    
[B]    [C#m]    [G#m]    [G#m]    

[B]    [C#m]    [G#m]    [G#m]    
[B]    [C#m]    [G#m]    [G#m]    
[B]    [C#m]    [G#m]    [G#m]    
[B]    [C#m]    [G#m]    [G#m]    

tabstave notes 14/5 16/3 16/4 16/2 16/4 16/2 16/4 16/2 14/5 16/3 14/5 16/3 16/4 16/2 13/4 16/2
tabstave notes 16/5 16/3 16/5 16/3 14/4 16/2 14/4 16/2 14/6 16/3 14/6 16/3 16/6 16/3 16/6 16/3
tabstave notes 11/5 13/3 11/5 13/3 13/4 12/2 13/4 12/2 13/4 12/2 11/5 13/3 13/4 12/2 13/4 12/2
tabstave notes 11/6 13/3 11/6 13/3 13/4 12/2 13/4 12/2 11/5 13/3 11/5 13/3 13/5 11/3 13/5 11/3



God of all
I'm in love with you
God of all
Why am I loved by you

Sending out signals from me
Sending out signals
Sending out signals to you
Sending out signals





God of all
I'm in love with you
God of all
Why am I loved by you

Sending out signals from me
Sending out signals
Sending out signals to you
Sending out signals







{start_of_tab}
e|------------------------------------------------|
B|---------16----16----16----------------16----16-|
G|---16----------------------16----16-------------|
D|------16----16----16----------------16----13----|
A|14----------------------14----14----------------|
E|------------------------------------------------|
{end_of_tab}
{start_of_tab}
e|------------------------------------------------|
B|---------------16----16-------------------------|
G|---16----16----------------16----16----16----16-|
D|------------14----14----------------------------|
A|16----16----------------------------------------|
E|------------------------14----14----16----16----|
{end_of_tab}
{start_of_tab}
e|------------------------------------------------|
B|---------------12----12----12----------12----12-|
G|---13----13----------------------13-------------|
D|------------13----13----13----------13----13----|
A|11----11----------------------11----------------|
E|------------------------------------------------|
{end_of_tab}
{start_of_tab}
e|------------------------------------------------|
B|---------------12----12-------------------------|
G|---13----13----------------13----13----11----11-|
D|------------13----13----------------------------|
A|------------------------11----11----13----13----|
E|11----11----------------------------------------|
{end_of_tab}

Chords

  • B
  • C#m
  • G#m

Pick an instrument

Transpose the song

Chord data © Chordinator.com

blog comments powered by Disqus
 
Validating login...