Enter

Popcorn

Song Author Gershon Kingsley Lyrics by: Þorgils Björgvinsson Performer: Hot Butter og Gershon Kingsley Submitted by: gilsi
[Bm]doo doo doo do doo da doo
[Bm]doo doo doo do doo da doo
[Bm]doo doo da doo da da
doo [A]da doo da da
doo [G]da doo da da doo [Bm]da   

[Bm]doo doo doo do doo da doo
[Bm]doo doo doo do doo da doo
[Bm]doo doo da doo da da
doo [A]da doo da da
doo [G]da doo da da doo [Bm]da   

doo doo [D]doo do doo da doo
[D]doo doo doo do doo da doo
doo doo [F#m]da doo da da
doo [E]da doo da da
doo [D]da doo da da doo da

doo doo [D]doo do doo da doo
[D]doo doo doo do doo da doo
doo doo [F#m]da doo da da
doo [E]da doo da da
doo [D]da doo da da doo [Bm]da   

tabstave notes 7/1 10/2 7/1 7/2 7/3 7/2 9/3 7/1 10/2 7/1 7/2 7/3 7/2 9/3
tabstave notes 7/1 9/1 10/1 9/1 10/1 7/1 9/1 7/1 9/1 10/2 7/1 10/2 7/1 10/2 7/1
tabstave notes 7/1 10/2 7/1 7/2 7/3 7/2 9/3 7/1 10/2 7/1 7/2 7/3 7/2 9/3
tabstave notes 7/1 9/1 10/1 9/1 10/1 7/1 9/1 7/1 9/1 10/2 7/1 10/2 7/1 9/1 10/1
tabstave notes 14/1 17/2 14/1 15/2 14/3 15/2 16/4 14/1 17/2 14/1 15/2 14/3 15/2 16/4
tabstave notes 14/1 16/1 17/1 16/1 17/1 14/1 16/1 14/1 16/1 17/2 14/1 17/2 14/1 15/2 14/1
tabstave notes 14/1 17/2 14/1 15/2 14/3 15/2 16/4 14/1 17/2 14/1 15/2 14/3 15/2 16/4
tabstave notes 14/1 16/1 17/1 16/1 17/1 14/1 16/1 14/1 16/1 17/2 14/1 17/2 14/2 17/2 14/1

doo doo doo do doo da doo
doo doo doo do doo da doo
doo doo da doo da da
doo da doo da da
doo da doo da da doo da

doo doo doo do doo da doo
doo doo doo do doo da doo
doo doo da doo da da
doo da doo da da
doo da doo da da doo da

doo doo doo do doo da doo
doo doo doo do doo da doo
doo doo da doo da da
doo da doo da da
doo da doo da da doo da

doo doo doo do doo da doo
doo doo doo do doo da doo
doo doo da doo da da
doo da doo da da
doo da doo da da doo da

{start_of_tab}
e|7----|-7-----------7----|-7-----------|
B|--10-|---7---7-------10-|---7---7-----|
G|-----|-----7---9--------|-----7---9---|
D|-----|------------------|-------------|
A|-----|------------------|-------------|
E|-----|------------------|-------------|
{end_of_tab}
{start_of_tab}
e|-7-9--|-10-9-10-7-9-7-9----|-7----7----7-|
B|------|-----------------10-|---10---10---|
G|------|--------------------|-------------|
D|------|--------------------|-------------|
A|------|--------------------|-------------|
E|------|--------------------|-------------|
{end_of_tab}
{start_of_tab}
e|7----|-7-----------7----|-7-----------|
B|--10-|---7---7-------10-|---7---7-----|
G|-----|-----7---9--------|-----7---9---|
D|-----|------------------|-------------|
A|-----|------------------|-------------|
E|-----|------------------|-------------|
{end_of_tab}
{start_of_tab}
e|-7-9--|-10-9-10-7-9-7-9----|-7----7-9-10-|
B|------|-----------------10-|---10--------|
G|------|--------------------|-------------|
D|------|--------------------|-------------|
A|------|--------------------|-------------|
E|------|--------------------|-------------|
{end_of_tab}
{start_of_tab}
e|14----|-14----------------14----|-14--------------|
B|---17-|----15----15----------17-|----15----15-----|
G|------|-------14----------------|-------14--------|
D|------|-------------16----------|-------------16--|
A|------|-------------------------|-----------------|
E|------|-------------------------|-----------------|
{end_of_tab}
{start_of_tab}
e|14-16-17-16-17-14-16-14-16----|-14----14----14--|
B|---------------------------17-|----17----15-----|
G|------------------------------|-----------------|
D|------------------------------|-----------------|
A|------------------------------|-----------------|
E|------------------------------|-----------------|
{end_of_tab}
{start_of_tab}
e|14----|-14----------------14----|-14--------------|
B|---17-|----15----15----------17-|----15----15-----|
G|------|-------14----------------|-------14--------|
D|------|-------------16----------|-------------16--|
A|------|-------------------------|-----------------|
E|------|-------------------------|-----------------|
{end_of_tab}
{start_of_tab}
e|14-16-17-16-17-14-16-14-16----|-14----------14-|
B|---------------------------17-|----17-14-17----|
G|------------------------------|----------------|
D|------------------------------|----------------|
A|------------------------------|----------------|
E|------------------------------|----------------|
{end_of_tab}

Chords

  • Bm
  • A
  • G
  • D
  • F#m
  • E

Pick an instrument

Transpose the song

Chord data © Chordinator.com

blog comments powered by Disqus
 
Validating login...