Enter

My Hope Is In You

Song Author Aaron Shust Submitted by: Anonymous
tabstave notes 3/2 0/1 2/1 5/1 3/2 0/1 2/1 5/1 3/2 0/1 2/1 5/1 3/2 0/1 2/1 5/1 3/2 0/1 2/1 5/1 3/2 0/1 2/1 5/1 3/2 0/1 2/1 5/1 3/2 2/1 0/1 2/1

tabstave notes 3/2 0/1 2/1 5/1 3/2 0/1 2/1 5/1 3/2 0/1 2/1 5/1 3/2 0/1 2/1 5/1 7/1 5/1 3/2 7/1 5/1 3/2 7/1 5/1 3/2

[Bm]I meet with yo[D]u and my soul si[G]ngs out [D]    
As your word[G] throws doubt far[Bm] away [A]    
[Bm]I sing to [D]you and my heart[G] cries holy [D]    
Halleluja[G]h Fat[Bm]her you're near [A]    

[G]My hope is in [D]you Lord
[A]All the day lon[Bm]g   
[G]I won't be sha[D]ken by drought[A] or storm [Bm]    
[G]A peace that passe[D]s understanding is [A]my song and I sing [Bm]    
[G]My hope is in y[D]ou alone [A]    

[Bm]I wait for [D]you and my soul [G]finds rest [D]    
In my sel[G]fishness[Bm] you show me grace [A]    
[Bm]I worship [D]you and my heart [G]cries glory [D]    
Hallelu[G]jah Fa[Bm]ther you're here [A]    

I will [G]wait [Bm]on    [A] you, You are my r[G]efug[Bm]e    [A]    
I will [G]wait o[D]n y[A]ou, [Bm] You are my [G]refu[D]ge   [A]    

{start_of_tab}
e|---0-2-5---0-2-5---0-2-5---0-2-5---0-2-5---0-2-5---0-2-5---2-0-2|
B|-3-------3-------3-------3-------3-------3-------3-------3------|
G|----------------------------------------------------------------|
D|----------------------------------------------------------------|
A|----------------------------------------------------------------|
E|----------------------------------------------------------------|
{end_of_tab}

{start_of_tab}
e|---0-2-5---0-2-5---0-2-5---0-2-5--7--5-----7--5-----7--5--------|
B|-3-------3-------3-------3--------------3--------3--------3-----|
G|----------------------------------------------------------------|
D|----------------------------------------------------------------|
A|----------------------------------------------------------------|
E|----------------------------------------------------------------|
{end_of_tab}

I meet with you and my soul sings out
As your word throws doubt far away
I sing to you and my heart cries holy
Hallelujah Father you're near

My hope is in you Lord
All the day long
I won't be shaken by drought or storm
A peace that passes understanding is my song and I sing
My hope is in you alone

I wait for you and my soul finds rest
In my selfishness you show me grace
I worship you and my heart cries glory
Hallelujah Father you're here

I will wait on you, You are my refuge
I will wait on you, You are my refuge

Chords

  • Bm
  • D
  • G
  • A

Pick an instrument

Transpose the song

Chord data © Chordinator.com

blog comments powered by Disqus
 
Validating login...