Enter

If Bubba Can Dance

Song Author Shenandoah Submitted by: Anonymous
[B]    [F#]    [B]    
tabstave notes 7/2 7/1 7/2 7/3 9/3 7/3 7/4 9/4 7/3 9/3 9/3 10/3 (7/1.7/2) 9/3 10/3 (7/1.7/2) 9/3 10/3 (7/1.7/2) 9/3 10/3 7/3

tabstave notes 9/4 9/5 10/5 7/4 7/4 7/4 9/5 10/5 7/4 7/4 9/5 7/6

[B]Well he saw it on[E] TV and ordered that video
He [B]learned every step at hom[F#]e and never told me so
When[B] I saw him out there [E]the very first time I knew
Well[B] if Bubb[F#]a can danc[B]e I can too

Yeah [E]now Bubba can scoot, Bubba can slide
[B]Bubba can two[Stop]-step, Bubba c[B]an glide
[E]I never though he[B] had the ne[F#]rve, he never said a word
Well e[B]verybody in the place stan[E]d back and give me some room
Cause[B] if Bubba [F#]can dance [B]I can too

[B]    [E]    [B]    [F#]    [B]    
[B]Well I've been watching all night [E]and I'm working my courage up
Hey t[B]hat dude's on the floor and [F#]he's doin' all the latest stuff
Well[B] if he's brave enough th[E]en I know what I gotta do
Hey [B]if Bubba[F#] can dance[B], I can too

Yeah [E]now Bubba can scoot, Bubba can slide
[B]Bubba can two[Stop]-step, Bubba c[B]an glide
[E]I never though he[B] had the ne[F#]rve, he never said a word
Well e[B]verybody in the place stan[E]d back and give me some room
Cause[B] if Bubba [F#]can dance [B]I can too

[E]Well i[B]f Bubba c[F#]an dance I[B] ca  [E]n too

tabstave notes 10/2 11/2 10/2 8/2 7/2 9/3 7/3 7/3 7/4 8/4 7/4 6/4 10/5 9/5 7/5 10/6 2/6 0/5 2/5 0/4 2/5 0/5 2/5


{start_of_tab}
|----7-----------------------7-------7-------7---------
|-/7---7---------------------7-------7-------7---------
|--------7h9p7-----7-9-9(10)---9(10)---9(10)---9(10)-7-
|--------------7h9-------------------------------------
|------------------------------------------------------
|------------------------------------------------------
{end_of_tab}

{start_of_tab}
|----------------------------
|----------------------------
|----------------------------
|-9-------7-7-7------7-7-----
|---9(10)-------9(10)----9---
|--------------------------7-
{end_of_tab}

Well he saw it on TV and ordered that video
He learned every step at home and never told me so
When I saw him out there the very first time I knew
Well if Bubba can dance I can too

Yeah now Bubba can scoot, Bubba can slide
Bubba can two-step, Bubba can glide
I never though he had the nerve, he never said a word
Well everybody in the place stand back and give me some room
Cause if Bubba can dance I can too


Well I've been watching all night and I'm working my courage up
Hey that dude's on the floor and he's doin' all the latest stuff
Well if he's brave enough then I know what I gotta do
Hey if Bubba can dance, I can too

Yeah now Bubba can scoot, Bubba can slide
Bubba can two-step, Bubba can glide
I never though he had the nerve, he never said a word
Well everybody in the place stand back and give me some room
Cause if Bubba can dance I can too

Well if Bubba can dance I can too

{start_of_tab}
|---------------------------------------------------------
|-10(11)(10)-8-7------------------------------------------
|----------------9-7-7------------------------------------
|----------------------7(8)(7)-6------------------0-------
|--------------------------------10-9-7-------0-2---2-0-2-
|---------------------------------------10--2-------------
{end_of_tab}

Chords

  • B
  • F#
  • E
  • Stop: not exist

Pick an instrument

Transpose the song

Chord data © Chordinator.com

blog comments powered by Disqus
 
Validating login...