Enter

Enola Gay

Song Author Andy McCluskey Lyrics by: Andy McCluskey Performer: Orchestral Manoeuvres In The Dark (OMD) Submitted by: gilsi
[F]    [Dm]    [Bb]    [C]    
[F]    [Dm]    [Bb]    [C]    
E[F]nola Gay, you should have stayed at home [Dm]yesterday
Aha words [Bb]can't describe the feeling and the [C]way you lied

These [F]games you play, they're gonna end it more than [Dm]tears someday
Aha e[Bb]nola gay, it shouldn't ever have to [C]end this way

[F]    [Dm]    [Bb]    [C]    
It's [F]8:15, and that's the time that it's [Dm]always been
We got your message on the [Bb]radio, condition's normal and your [C]comin' home

[F]    [Dm]    [Bb]    [C]    
[F]    [Dm]    [Bb]    [C]    
E[F]nola Gay, is mother proud of little [Dm]boy today
Aha this [Bb]kiss you give, it's never ever gonna [C]fade away.

[C]    
[F]    [Dm]    [Bb]    [C]    
E[F]nola gay, It shouldn't ever have to [Dm]end this way
Aha E[Bb]nola gay, it shouldn't fade in our [C]dreams away

It's [F]8:15, and that's the time that it's [Dm]always been
We got your message on the [Bb]radio, condition's normal and your [C]comin' home

E[F]nola Gay, is mother proud of little [Dm]boy today
Aha this [Bb]kiss you give, it's never ever gonna [C]fade away. [F]    

Synth riff for intro:
tabstave notes 6/2 6/2 5/1 6/1 8/1 6/1 5/1 6/2 6/2 5/1 6/1 8/1 6/1 5/1 3/2 3/2 6/2 3/1 5/1 3/1 6/2 3/2 3/2 5/1 3/1 6/2
tabstave notes 3/3 3/3 3/2 4/2 6/2 4/2 3/2 3/3 3/3 3/2 4/2 6/2 4/2 3/2 5/3 5/3 5/2 6/2 8/2 6/2 5/2 5/3 5/3 8/2 6/2 5/2



Enola Gay, you should have stayed at home yesterday
Aha words can't describe the feeling and the way you lied

These games you play, they're gonna end it more than tears someday
Aha enola gay, it shouldn't ever have to end this way


It's 8:15, and that's the time that it's always been
We got your message on the radio, condition's normal and your comin' home



Enola Gay, is mother proud of little boy today
Aha this kiss you give, it's never ever gonna fade away.



Enola gay, It shouldn't ever have to end this way
Aha Enola gay, it shouldn't fade in our dreams away

It's 8:15, and that's the time that it's always been
We got your message on the radio, condition's normal and your comin' home

Enola Gay, is mother proud of little boy today
Aha this kiss you give, it's never ever gonna fade away.

Synth riff for intro:
{start_of_tab}
e|-----5-6-8-6-5-------5-6-8-6-5--|-------3-5-3---------5-3------|
B|-6-6-----------6---6------------|-3-3-6-------6-3---3------6---|
G|--------------------------------|------------------------------|
D|--------------------------------|------------------------------|
A|--------------------------------|------------------------------|
E|--------------------------------|------------------------------|
{end_of_tab}
{start_of_tab}
e|--------------------------------|------------------------------|
B|-----3-4-6-4-3-------3-4-6-4-3--|-----5-6-8-6-5-------8-6--5---|
G|-3-3-----------3---3------------|-5-5-----------5---5----------|
D|--------------------------------|------------------------------|
A|--------------------------------|------------------------------|
E|--------------------------------|------------------------------|
{end_of_tab}

Chords

  • F
  • Dm
  • Bb
  • C

Pick an instrument

Transpose the song

Chord data © Chordinator.com

blog comments powered by Disqus
 
Validating login...