Enter

Draumur um Nínu (Einfaldari útg.)

Intro:
tabstave notes 7/1 7/3 8/2 7/1 5/1 7/3 7/2 5/1 3/1 5/3 5/2 3/1 3/1 4/3 3/2 3/1 3/1 5/3 3/2 3/1 2/1 3/2 2/1 3/1 (0/3.3/1.3/2)

[G]Núna ertu hjá mér, [C]Nína..
[G]Strýkur mér um vangann, [Am7]Nína. [D]    
[G]Ó, halt'í höndina [G7]á mér, [C]Nína. [A]    
Því þú [G]veist að ég mun [Em]aldrei aftur.
[G]Ég mun aldrei, [Em]aldrei aftur.
[Am7]Aldrei aftur [D]eiga stund með [G]þér.

[G]Það er sárt að sakna [C]einhvers.
[G]Lífið heldur [Em]áfram - [Am7]til hvers? [D]    
[G]Ég vil ekki vakna[G7],    [C]frá þér. [A]    
Því ég [G]veit að þú munt [Em]aldrei aftur.
[G]Þú munt aldrei, [Em]aldrei aftur.
[Am7]Aldrei aftur [D]strjúka vanga [G]minn. [A]    

Þegar þú í [D]draumum mínum [G]birtist
allt er [D]ljúft og gott. [A]    [D]    
Og ég v[F#m]ild'ég gæti s[G]ofið heila ö[Asus4]ld.      [A]    
Því að [D]nóttin veitir [D7]aðeins
[D7]skamma [G]stund með þér. [Em]    
[D]-Er ég vakna...
[Em]Nína, þú ert [Asus4]ekki       [A7]lengur [D]hér.
Opna [D]augun...
[Em]Engin strýkur [Asus4]blítt um [A7]vanga [D]mér.

Dagurinn er eilífð án þín. [G]    
Kvöldið kalt og tómlegt án þín. [D]    
Er nóttin kemur fer ég til [G]þín. [A]    [B]    

Þegar þú í [E]draumum mínum [A]birtist
allt er lj[E]úft og gott. [B]    [E]    
Og ég [E]vild'ég gæti [A]sofið heila [Bsus4]öld. [B]    
Því að [E]nóttin veitir [E7]aðeins
[E7]skamma [A]stund með þér. [F#m]    
[E]Er ég vakna...
[F#m]Nína, þú ert [Bsus4]ekki lengur [E]hér.
[E]Opna augun...
[F#m]Engin strýkur [Bsus4]blítt um vanga [C#]mér.   

[F#]Er ég vakna - Oh
[G#m]Nína, þú ert [C#sus4]ekki lengur [F#]hér.   
[F#]Opna augun.
[G#m]Engin strýkur [C#sus4]blítt um vanga [F#sus4]mér. [F#]    [B]    

tabstave notes 11/1 11/3 12/2 11/1 9/1 11/3 11/2 9/1 7/1 9/3 9/2 7/1 7/1 8/3 7/2 7/1 7/1 9/3 9/2 7/1 6/1 7/2 6/1 7/1 (4/3.7/1.7/2)

Intro:
{start_of_tab}
E|-7-----7-|-5-----5-|-3-----3-|-3-----3-|-3-----3-|-2---2-3-|-3---|
B|-----8---|-----7---|-----5---|-----3---|-----3---|---3-----|-3---|
G|---7-----|---7-----|---5-----|---4-----|---5-----|---------|-0---|
D|---------|---------|---------|---------|---------|---------|-----|
A|---------|---------|---------|---------|---------|---------|-----|
E|---------|---------|---------|---------|---------|---------|-----|
{end_of_tab}

Núna ertu hjá mér, Nína..
Strýkur mér um vangann, Nína.
Ó, halt'í höndina á mér, Nína.
Því þú veist að ég mun aldrei aftur.
Ég mun aldrei, aldrei aftur.
Aldrei aftur eiga stund með þér.

Það er sárt að sakna einhvers.
Lífið heldur áfram - til hvers?
Ég vil ekki vakna, frá þér.
Því ég veit að þú munt aldrei aftur.
Þú munt aldrei, aldrei aftur.
Aldrei aftur strjúka vanga minn.

Þegar þú í draumum mínum birtist
allt er ljúft og gott.
Og ég vild'ég gæti sofið heila öld.
Því að nóttin veitir aðeins
skamma stund með þér.
-Er ég vakna...
Nína, þú ert ekki lengur hér.
Opna augun...
Engin strýkur blítt um vanga mér.

Dagurinn er eilífð án þín.
Kvöldið kalt og tómlegt án þín.
Er nóttin kemur fer ég til þín.

Þegar þú í draumum mínum birtist
allt er ljúft og gott.
Og ég vild'ég gæti sofið heila öld.
Því að nóttin veitir aðeins
skamma stund með þér.
Er ég vakna...
Nína, þú ert ekki lengur hér.
Opna augun...
Engin strýkur blítt um vanga mér.

Er ég vakna - Oh
Nína, þú ert ekki lengur hér.
Opna augun.
Engin strýkur blítt um vanga mér.

{start_of_tab}
E|-11-----11-|-9-------9-|-7-----7-|-7-----7-|-7-----7-|-6---6-7-|-7---|
B|-----12----|------11---|-----9---|-----7---|-----9---|---7-----|-7---|
G|---11------|---11------|---9-----|---8-----|---9-----|---------|-4---|
D|-----------|-----------|---------|---------|---------|---------|-----|
A|-----------|-----------|---------|---------|---------|---------|-----|
E|-----------|-----------|---------|---------|---------|---------|-----|
{end_of_tab}

Chords

  • G
  • C
  • Am7
  • D
  • G7
  • A
  • Em
  • F#m
  • Asus4
  • D7
  • A7
  • B
  • E
  • Bsus4
  • E7
  • C#
  • F#
  • G#m
  • C#sus4
  • F#sus4

Pick an instrument

Transpose the song

Chord data © Chordinator.com

blog comments powered by Disqus
 
Validating login...